ISO-10303-21;
HEADER;
/* Generated by software containing ST-Developer
 * from STEP Tools, Inc. (www.steptools.com) 
 */

FILE_DESCRIPTION(
/* description */ (''),
/* implementation_level */ '2;1');

FILE_NAME(
/* name */ 'really_simple_arm.step',
/* time_stamp */ '2024-07-13T21:28:27+02:00',
/* author */ (''),
/* organization */ (''),
/* preprocessor_version */ 'ST-DEVELOPER v20',
/* originating_system */ 'Autodesk Translation Framework v13.14.0.145',

/* authorisation */ '');

FILE_SCHEMA (('AUTOMOTIVE_DESIGN { 1 0 10303 214 3 1 1 }'));
ENDSEC;

DATA;
#10=MECHANICAL_DESIGN_GEOMETRIC_PRESENTATION_REPRESENTATION('',(#28,#29,
#30),#627);
#11=SHAPE_REPRESENTATION_RELATIONSHIP('SRR','None',#634,#12);
#12=ADVANCED_BREP_SHAPE_REPRESENTATION('',(#31,#32,#33),#626);
#13=CYLINDRICAL_SURFACE('',#396,35.6381514471975);
#14=CYLINDRICAL_SURFACE('',#405,23.2364036994928);
#15=CYLINDRICAL_SURFACE('',#408,30.0547885223309);
#16=CYLINDRICAL_SURFACE('',#411,28.2606132277752);
#17=CYLINDRICAL_SURFACE('',#414,30.0547885223309);
#18=CIRCLE('',#392,35.6381514471975);
#19=CIRCLE('',#397,35.6381514471975);
#20=CIRCLE('',#400,30.0547885223309);
#21=CIRCLE('',#401,23.2364036994928);
#22=CIRCLE('',#402,30.0547885223309);
#23=CIRCLE('',#403,28.2606132277752);
#24=CIRCLE('',#406,23.2364036994928);
#25=CIRCLE('',#409,30.0547885223309);
#26=CIRCLE('',#412,28.2606132277752);
#27=CIRCLE('',#415,30.0547885223309);
#28=STYLED_ITEM('',(#643),#31);
#29=STYLED_ITEM('',(#643),#32);
#30=STYLED_ITEM('',(#643),#33);
#31=MANIFOLD_SOLID_BREP('base',#369);
#32=MANIFOLD_SOLID_BREP('link1',#370);
#33=MANIFOLD_SOLID_BREP('link2',#371);
#34=FACE_OUTER_BOUND('',#56,.T.);
#35=FACE_OUTER_BOUND('',#57,.T.);
#36=FACE_OUTER_BOUND('',#58,.T.);
#37=FACE_OUTER_BOUND('',#59,.T.);
#38=FACE_OUTER_BOUND('',#60,.T.);
#39=FACE_OUTER_BOUND('',#61,.T.);
#40=FACE_OUTER_BOUND('',#62,.T.);
#41=FACE_OUTER_BOUND('',#63,.T.);
#42=FACE_OUTER_BOUND('',#64,.T.);
#43=FACE_OUTER_BOUND('',#65,.T.);
#44=FACE_OUTER_BOUND('',#66,.T.);
#45=FACE_OUTER_BOUND('',#67,.T.);
#46=FACE_OUTER_BOUND('',#68,.T.);
#47=FACE_OUTER_BOUND('',#69,.T.);
#48=FACE_OUTER_BOUND('',#70,.T.);
#49=FACE_OUTER_BOUND('',#71,.T.);
#50=FACE_OUTER_BOUND('',#72,.T.);
#51=FACE_OUTER_BOUND('',#73,.T.);
#52=FACE_OUTER_BOUND('',#74,.T.);
#53=FACE_OUTER_BOUND('',#75,.T.);
#54=FACE_OUTER_BOUND('',#76,.T.);
#55=FACE_OUTER_BOUND('',#77,.T.);
#56=EDGE_LOOP('',(#234,#235,#236,#237));
#57=EDGE_LOOP('',(#238,#239,#240,#241));
#58=EDGE_LOOP('',(#242,#243,#244,#245));
#59=EDGE_LOOP('',(#246,#247,#248,#249));
#60=EDGE_LOOP('',(#250,#251,#252,#253));
#61=EDGE_LOOP('',(#254,#255,#256,#257));
#62=EDGE_LOOP('',(#258,#259,#260,#261));
#63=EDGE_LOOP('',(#262,#263,#264,#265));
#64=EDGE_LOOP('',(#266,#267,#268,#269));
#65=EDGE_LOOP('',(#270,#271,#272,#273));
#66=EDGE_LOOP('',(#274,#275,#276,#277));
#67=EDGE_LOOP('',(#278,#279,#280,#281));
#68=EDGE_LOOP('',(#282,#283,#284,#285,#286,#287,#288,#289));
#69=EDGE_LOOP('',(#290,#291,#292,#293));
#70=EDGE_LOOP('',(#294,#295,#296,#297));
#71=EDGE_LOOP('',(#298,#299,#300,#301));
#72=EDGE_LOOP('',(#302,#303,#304,#305));
#73=EDGE_LOOP('',(#306,#307,#308,#309));
#74=EDGE_LOOP('',(#310,#311,#312,#313));
#75=EDGE_LOOP('',(#314,#315,#316,#317));
#76=EDGE_LOOP('',(#318,#319,#320,#321));
#77=EDGE_LOOP('',(#322,#323,#324,#325,#326,#327,#328,#329));
#78=LINE('',#525,#116);
#79=LINE('',#527,#117);
#80=LINE('',#529,#118);
#81=LINE('',#530,#119);
#82=LINE('',#533,#120);
#83=LINE('',#535,#121);
#84=LINE('',#536,#122);
#85=LINE('',#539,#123);
#86=LINE('',#540,#124);
#87=LINE('',#543,#125);
#88=LINE('',#544,#126);
#89=LINE('',#546,#127);
#90=LINE('',#553,#128);
#91=LINE('',#555,#129);
#92=LINE('',#556,#130);
#93=LINE('',#559,#131);
#94=LINE('',#561,#132);
#95=LINE('',#562,#133);
#96=LINE('',#565,#134);
#97=LINE('',#566,#135);
#98=LINE('',#569,#136);
#99=LINE('',#570,#137);
#100=LINE('',#579,#138);
#101=LINE('',#583,#139);
#102=LINE('',#587,#140);
#103=LINE('',#590,#141);
#104=LINE('',#593,#142);
#105=LINE('',#595,#143);
#106=LINE('',#596,#144);
#107=LINE('',#600,#145);
#108=LINE('',#603,#146);
#109=LINE('',#604,#147);
#110=LINE('',#608,#148);
#111=LINE('',#611,#149);
#112=LINE('',#612,#150);
#113=LINE('',#616,#151);
#114=LINE('',#619,#152);
#115=LINE('',#620,#153);
#116=VECTOR('',#421,10.);
#117=VECTOR('',#422,10.);
#118=VECTOR('',#423,10.);
#119=VECTOR('',#424,10.);
#120=VECTOR('',#427,10.);
#121=VECTOR('',#428,10.);
#122=VECTOR('',#429,10.);
#123=VECTOR('',#432,10.);
#124=VECTOR('',#433,10.);
#125=VECTOR('',#436,10.);
#126=VECTOR('',#437,10.);
#127=VECTOR('',#440,10.);
#128=VECTOR('',#447,10.);
#129=VECTOR('',#448,10.);
#130=VECTOR('',#449,10.);
#131=VECTOR('',#452,10.);
#132=VECTOR('',#453,10.);
#133=VECTOR('',#454,10.);
#134=VECTOR('',#457,10.);
#135=VECTOR('',#458,10.);
#136=VECTOR('',#461,10.);
#137=VECTOR('',#462,10.);
#138=VECTOR('',#473,10.);
#139=VECTOR('',#476,10.);
#140=VECTOR('',#479,10.);
#141=VECTOR('',#482,10.);
#142=VECTOR('',#485,10.);
#143=VECTOR('',#486,10.);
#144=VECTOR('',#487,10.);
#145=VECTOR('',#492,10.);
#146=VECTOR('',#495,10.);
#147=VECTOR('',#496,10.);
#148=VECTOR('',#501,10.);
#149=VECTOR('',#504,10.);
#150=VECTOR('',#505,10.);
#151=VECTOR('',#510,10.);
#152=VECTOR('',#513,10.);
#153=VECTOR('',#514,10.);
#154=VERTEX_POINT('',#523);
#155=VERTEX_POINT('',#524);
#156=VERTEX_POINT('',#526);
#157=VERTEX_POINT('',#528);
#158=VERTEX_POINT('',#532);
#159=VERTEX_POINT('',#534);
#160=VERTEX_POINT('',#538);
#161=VERTEX_POINT('',#542);
#162=VERTEX_POINT('',#549);
#163=VERTEX_POINT('',#550);
#164=VERTEX_POINT('',#552);
#165=VERTEX_POINT('',#554);
#166=VERTEX_POINT('',#558);
#167=VERTEX_POINT('',#560);
#168=VERTEX_POINT('',#564);
#169=VERTEX_POINT('',#568);
#170=VERTEX_POINT('',#575);
#171=VERTEX_POINT('',#576);
#172=VERTEX_POINT('',#578);
#173=VERTEX_POINT('',#580);
#174=VERTEX_POINT('',#582);
#175=VERTEX_POINT('',#584);
#176=VERTEX_POINT('',#586);
#177=VERTEX_POINT('',#588);
#178=VERTEX_POINT('',#592);
#179=VERTEX_POINT('',#594);
#180=VERTEX_POINT('',#598);
#181=VERTEX_POINT('',#602);
#182=VERTEX_POINT('',#606);
#183=VERTEX_POINT('',#610);
#184=VERTEX_POINT('',#614);
#185=VERTEX_POINT('',#618);
#186=EDGE_CURVE('',#154,#155,#78,.T.);
#187=EDGE_CURVE('',#155,#156,#79,.T.);
#188=EDGE_CURVE('',#156,#157,#80,.T.);
#189=EDGE_CURVE('',#157,#154,#81,.T.);
#190=EDGE_CURVE('',#158,#155,#82,.T.);
#191=EDGE_CURVE('',#159,#158,#83,.T.);
#192=EDGE_CURVE('',#156,#159,#84,.T.);
#193=EDGE_CURVE('',#160,#159,#85,.T.);
#194=EDGE_CURVE('',#157,#160,#86,.T.);
#195=EDGE_CURVE('',#161,#160,#87,.T.);
#196=EDGE_CURVE('',#154,#161,#88,.T.);
#197=EDGE_CURVE('',#158,#161,#89,.T.);
#198=EDGE_CURVE('',#162,#163,#18,.T.);
#199=EDGE_CURVE('',#163,#164,#90,.T.);
#200=EDGE_CURVE('',#164,#165,#91,.T.);
#201=EDGE_CURVE('',#165,#162,#92,.T.);
#202=EDGE_CURVE('',#166,#163,#93,.T.);
#203=EDGE_CURVE('',#167,#166,#94,.T.);
#204=EDGE_CURVE('',#164,#167,#95,.T.);
#205=EDGE_CURVE('',#168,#167,#96,.T.);
#206=EDGE_CURVE('',#165,#168,#97,.T.);
#207=EDGE_CURVE('',#169,#168,#98,.T.);
#208=EDGE_CURVE('',#162,#169,#99,.T.);
#209=EDGE_CURVE('',#166,#169,#19,.T.);
#210=EDGE_CURVE('',#170,#171,#20,.T.);
#211=EDGE_CURVE('',#171,#172,#100,.T.);
#212=EDGE_CURVE('',#172,#173,#21,.T.);
#213=EDGE_CURVE('',#173,#174,#101,.T.);
#214=EDGE_CURVE('',#174,#175,#22,.T.);
#215=EDGE_CURVE('',#175,#176,#102,.T.);
#216=EDGE_CURVE('',#176,#177,#23,.T.);
#217=EDGE_CURVE('',#177,#170,#103,.T.);
#218=EDGE_CURVE('',#178,#171,#104,.T.);
#219=EDGE_CURVE('',#179,#178,#105,.T.);
#220=EDGE_CURVE('',#172,#179,#106,.T.);
#221=EDGE_CURVE('',#180,#179,#24,.T.);
#222=EDGE_CURVE('',#173,#180,#107,.T.);
#223=EDGE_CURVE('',#181,#180,#108,.T.);
#224=EDGE_CURVE('',#174,#181,#109,.T.);
#225=EDGE_CURVE('',#182,#181,#25,.T.);
#226=EDGE_CURVE('',#175,#182,#110,.T.);
#227=EDGE_CURVE('',#183,#182,#111,.T.);
#228=EDGE_CURVE('',#176,#183,#112,.T.);
#229=EDGE_CURVE('',#184,#183,#26,.T.);
#230=EDGE_CURVE('',#177,#184,#113,.T.);
#231=EDGE_CURVE('',#185,#184,#114,.T.);
#232=EDGE_CURVE('',#170,#185,#115,.T.);
#233=EDGE_CURVE('',#178,#185,#27,.T.);
#234=ORIENTED_EDGE('',*,*,#186,.T.);
#235=ORIENTED_EDGE('',*,*,#187,.T.);
#236=ORIENTED_EDGE('',*,*,#188,.T.);
#237=ORIENTED_EDGE('',*,*,#189,.T.);
#238=ORIENTED_EDGE('',*,*,#190,.F.);
#239=ORIENTED_EDGE('',*,*,#191,.F.);
#240=ORIENTED_EDGE('',*,*,#192,.F.);
#241=ORIENTED_EDGE('',*,*,#187,.F.);
#242=ORIENTED_EDGE('',*,*,#192,.T.);
#243=ORIENTED_EDGE('',*,*,#193,.F.);
#244=ORIENTED_EDGE('',*,*,#194,.F.);
#245=ORIENTED_EDGE('',*,*,#188,.F.);
#246=ORIENTED_EDGE('',*,*,#194,.T.);
#247=ORIENTED_EDGE('',*,*,#195,.F.);
#248=ORIENTED_EDGE('',*,*,#196,.F.);
#249=ORIENTED_EDGE('',*,*,#189,.F.);
#250=ORIENTED_EDGE('',*,*,#196,.T.);
#251=ORIENTED_EDGE('',*,*,#197,.F.);
#252=ORIENTED_EDGE('',*,*,#190,.T.);
#253=ORIENTED_EDGE('',*,*,#186,.F.);
#254=ORIENTED_EDGE('',*,*,#197,.T.);
#255=ORIENTED_EDGE('',*,*,#195,.T.);
#256=ORIENTED_EDGE('',*,*,#193,.T.);
#257=ORIENTED_EDGE('',*,*,#191,.T.);
#258=ORIENTED_EDGE('',*,*,#198,.T.);
#259=ORIENTED_EDGE('',*,*,#199,.T.);
#260=ORIENTED_EDGE('',*,*,#200,.T.);
#261=ORIENTED_EDGE('',*,*,#201,.T.);
#262=ORIENTED_EDGE('',*,*,#202,.F.);
#263=ORIENTED_EDGE('',*,*,#203,.F.);
#264=ORIENTED_EDGE('',*,*,#204,.F.);
#265=ORIENTED_EDGE('',*,*,#199,.F.);
#266=ORIENTED_EDGE('',*,*,#204,.T.);
#267=ORIENTED_EDGE('',*,*,#205,.F.);
#268=ORIENTED_EDGE('',*,*,#206,.F.);
#269=ORIENTED_EDGE('',*,*,#200,.F.);
#270=ORIENTED_EDGE('',*,*,#206,.T.);
#271=ORIENTED_EDGE('',*,*,#207,.F.);
#272=ORIENTED_EDGE('',*,*,#208,.F.);
#273=ORIENTED_EDGE('',*,*,#201,.F.);
#274=ORIENTED_EDGE('',*,*,#208,.T.);
#275=ORIENTED_EDGE('',*,*,#209,.F.);
#276=ORIENTED_EDGE('',*,*,#202,.T.);
#277=ORIENTED_EDGE('',*,*,#198,.F.);
#278=ORIENTED_EDGE('',*,*,#209,.T.);
#279=ORIENTED_EDGE('',*,*,#207,.T.);
#280=ORIENTED_EDGE('',*,*,#205,.T.);
#281=ORIENTED_EDGE('',*,*,#203,.T.);
#282=ORIENTED_EDGE('',*,*,#210,.T.);
#283=ORIENTED_EDGE('',*,*,#211,.T.);
#284=ORIENTED_EDGE('',*,*,#212,.T.);
#285=ORIENTED_EDGE('',*,*,#213,.T.);
#286=ORIENTED_EDGE('',*,*,#214,.T.);
#287=ORIENTED_EDGE('',*,*,#215,.T.);
#288=ORIENTED_EDGE('',*,*,#216,.T.);
#289=ORIENTED_EDGE('',*,*,#217,.T.);
#290=ORIENTED_EDGE('',*,*,#218,.F.);
#291=ORIENTED_EDGE('',*,*,#219,.F.);
#292=ORIENTED_EDGE('',*,*,#220,.F.);
#293=ORIENTED_EDGE('',*,*,#211,.F.);
#294=ORIENTED_EDGE('',*,*,#220,.T.);
#295=ORIENTED_EDGE('',*,*,#221,.F.);
#296=ORIENTED_EDGE('',*,*,#222,.F.);
#297=ORIENTED_EDGE('',*,*,#212,.F.);
#298=ORIENTED_EDGE('',*,*,#222,.T.);
#299=ORIENTED_EDGE('',*,*,#223,.F.);
#300=ORIENTED_EDGE('',*,*,#224,.F.);
#301=ORIENTED_EDGE('',*,*,#213,.F.);
#302=ORIENTED_EDGE('',*,*,#224,.T.);
#303=ORIENTED_EDGE('',*,*,#225,.F.);
#304=ORIENTED_EDGE('',*,*,#226,.F.);
#305=ORIENTED_EDGE('',*,*,#214,.F.);
#306=ORIENTED_EDGE('',*,*,#226,.T.);
#307=ORIENTED_EDGE('',*,*,#227,.F.);
#308=ORIENTED_EDGE('',*,*,#228,.F.);
#309=ORIENTED_EDGE('',*,*,#215,.F.);
#310=ORIENTED_EDGE('',*,*,#228,.T.);
#311=ORIENTED_EDGE('',*,*,#229,.F.);
#312=ORIENTED_EDGE('',*,*,#230,.F.);
#313=ORIENTED_EDGE('',*,*,#216,.F.);
#314=ORIENTED_EDGE('',*,*,#230,.T.);
#315=ORIENTED_EDGE('',*,*,#231,.F.);
#316=ORIENTED_EDGE('',*,*,#232,.F.);
#317=ORIENTED_EDGE('',*,*,#217,.F.);
#318=ORIENTED_EDGE('',*,*,#232,.T.);
#319=ORIENTED_EDGE('',*,*,#233,.F.);
#320=ORIENTED_EDGE('',*,*,#218,.T.);
#321=ORIENTED_EDGE('',*,*,#210,.F.);
#322=ORIENTED_EDGE('',*,*,#233,.T.);
#323=ORIENTED_EDGE('',*,*,#231,.T.);
#324=ORIENTED_EDGE('',*,*,#229,.T.);
#325=ORIENTED_EDGE('',*,*,#227,.T.);
#326=ORIENTED_EDGE('',*,*,#225,.T.);
#327=ORIENTED_EDGE('',*,*,#223,.T.);
#328=ORIENTED_EDGE('',*,*,#221,.T.);
#329=ORIENTED_EDGE('',*,*,#219,.T.);
#330=PLANE('',#385);
#331=PLANE('',#386);
#332=PLANE('',#387);
#333=PLANE('',#388);
#334=PLANE('',#389);
#335=PLANE('',#390);
#336=PLANE('',#391);
#337=PLANE('',#393);
#338=PLANE('',#394);
#339=PLANE('',#395);
#340=PLANE('',#398);
#341=PLANE('',#399);
#342=PLANE('',#404);
#343=PLANE('',#407);
#344=PLANE('',#410);
#345=PLANE('',#413);
#346=PLANE('',#416);
#347=ADVANCED_FACE('',(#34),#330,.T.);
#348=ADVANCED_FACE('',(#35),#331,.T.);
#349=ADVANCED_FACE('',(#36),#332,.T.);
#350=ADVANCED_FACE('',(#37),#333,.T.);
#351=ADVANCED_FACE('',(#38),#334,.T.);
#352=ADVANCED_FACE('',(#39),#335,.T.);
#353=ADVANCED_FACE('',(#40),#336,.F.);
#354=ADVANCED_FACE('',(#41),#337,.T.);
#355=ADVANCED_FACE('',(#42),#338,.T.);
#356=ADVANCED_FACE('',(#43),#339,.T.);
#357=ADVANCED_FACE('',(#44),#13,.T.);
#358=ADVANCED_FACE('',(#45),#340,.T.);
#359=ADVANCED_FACE('',(#46),#341,.F.);
#360=ADVANCED_FACE('',(#47),#342,.T.);
#361=ADVANCED_FACE('',(#48),#14,.F.);
#362=ADVANCED_FACE('',(#49),#343,.T.);
#363=ADVANCED_FACE('',(#50),#15,.T.);
#364=ADVANCED_FACE('',(#51),#344,.T.);
#365=ADVANCED_FACE('',(#52),#16,.T.);
#366=ADVANCED_FACE('',(#53),#345,.T.);
#367=ADVANCED_FACE('',(#54),#17,.T.);
#368=ADVANCED_FACE('',(#55),#346,.T.);
#369=CLOSED_SHELL('',(#347,#348,#349,#350,#351,#352));
#370=CLOSED_SHELL('',(#353,#354,#355,#356,#357,#358));
#371=CLOSED_SHELL('',(#359,#360,#361,#362,#363,#364,#365,#366,#367,#368));
#372=DERIVED_UNIT_ELEMENT(#374,1.);
#373=DERIVED_UNIT_ELEMENT(#629,-3.);
#374=(
MASS_UNIT()
NAMED_UNIT(*)
SI_UNIT(.KILO.,.GRAM.)
);
#375=DERIVED_UNIT((#372,#373));
#376=MEASURE_REPRESENTATION_ITEM('density measure',
POSITIVE_RATIO_MEASURE(7850.),#375);
#377=PROPERTY_DEFINITION_REPRESENTATION(#382,#379);
#378=PROPERTY_DEFINITION_REPRESENTATION(#383,#380);
#379=REPRESENTATION('material name',(#381),#626);
#380=REPRESENTATION('density',(#376),#626);
#381=DESCRIPTIVE_REPRESENTATION_ITEM('Steel','Steel');
#382=PROPERTY_DEFINITION('material property','material name',#636);
#383=PROPERTY_DEFINITION('material property','density of part',#636);
#384=AXIS2_PLACEMENT_3D('',#521,#417,#418);
#385=AXIS2_PLACEMENT_3D('',#522,#419,#420);
#386=AXIS2_PLACEMENT_3D('',#531,#425,#426);
#387=AXIS2_PLACEMENT_3D('',#537,#430,#431);
#388=AXIS2_PLACEMENT_3D('',#541,#434,#435);
#389=AXIS2_PLACEMENT_3D('',#545,#438,#439);
#390=AXIS2_PLACEMENT_3D('',#547,#441,#442);
#391=AXIS2_PLACEMENT_3D('',#548,#443,#444);
#392=AXIS2_PLACEMENT_3D('',#551,#445,#446);
#393=AXIS2_PLACEMENT_3D('',#557,#450,#451);
#394=AXIS2_PLACEMENT_3D('',#563,#455,#456);
#395=AXIS2_PLACEMENT_3D('',#567,#459,#460);
#396=AXIS2_PLACEMENT_3D('',#571,#463,#464);
#397=AXIS2_PLACEMENT_3D('',#572,#465,#466);
#398=AXIS2_PLACEMENT_3D('',#573,#467,#468);
#399=AXIS2_PLACEMENT_3D('',#574,#469,#470);
#400=AXIS2_PLACEMENT_3D('',#577,#471,#472);
#401=AXIS2_PLACEMENT_3D('',#581,#474,#475);
#402=AXIS2_PLACEMENT_3D('',#585,#477,#478);
#403=AXIS2_PLACEMENT_3D('',#589,#480,#481);
#404=AXIS2_PLACEMENT_3D('',#591,#483,#484);
#405=AXIS2_PLACEMENT_3D('',#597,#488,#489);
#406=AXIS2_PLACEMENT_3D('',#599,#490,#491);
#407=AXIS2_PLACEMENT_3D('',#601,#493,#494);
#408=AXIS2_PLACEMENT_3D('',#605,#497,#498);
#409=AXIS2_PLACEMENT_3D('',#607,#499,#500);
#410=AXIS2_PLACEMENT_3D('',#609,#502,#503);
#411=AXIS2_PLACEMENT_3D('',#613,#506,#507);
#412=AXIS2_PLACEMENT_3D('',#615,#508,#509);
#413=AXIS2_PLACEMENT_3D('',#617,#511,#512);
#414=AXIS2_PLACEMENT_3D('',#621,#515,#516);
#415=AXIS2_PLACEMENT_3D('',#622,#517,#518);
#416=AXIS2_PLACEMENT_3D('',#623,#519,#520);
#417=DIRECTION('axis',(0.,0.,1.));
#418=DIRECTION('refdir',(1.,0.,0.));
#419=DIRECTION('center_axis',(0.,0.,-1.));
#420=DIRECTION('ref_axis',(-1.,0.,0.));
#421=DIRECTION('',(0.,1.,0.));
#422=DIRECTION('',(1.,0.,0.));
#423=DIRECTION('',(0.,-1.,0.));
#424=DIRECTION('',(-1.,0.,0.));
#425=DIRECTION('center_axis',(0.,1.,0.));
#426=DIRECTION('ref_axis',(-1.,0.,0.));
#427=DIRECTION('',(0.,0.,-1.));
#428=DIRECTION('',(-1.,0.,0.));
#429=DIRECTION('',(0.,0.,1.));
#430=DIRECTION('center_axis',(1.,0.,0.));
#431=DIRECTION('ref_axis',(0.,1.,0.));
#432=DIRECTION('',(0.,1.,0.));
#433=DIRECTION('',(0.,0.,1.));
#434=DIRECTION('center_axis',(0.,-1.,0.));
#435=DIRECTION('ref_axis',(1.,0.,0.));
#436=DIRECTION('',(1.,0.,0.));
#437=DIRECTION('',(0.,0.,1.));
#438=DIRECTION('center_axis',(-1.,0.,0.));
#439=DIRECTION('ref_axis',(0.,-1.,0.));
#440=DIRECTION('',(0.,-1.,0.));
#441=DIRECTION('center_axis',(0.,0.,1.));
#442=DIRECTION('ref_axis',(1.,0.,0.));
#443=DIRECTION('center_axis',(0.,0.,1.));
#444=DIRECTION('ref_axis',(1.,0.,0.));
#445=DIRECTION('center_axis',(0.,0.,-1.));
#446=DIRECTION('ref_axis',(1.,0.,0.));
#447=DIRECTION('',(0.363307361106044,0.931669341218311,0.));
#448=DIRECTION('',(0.931669341218312,-0.363307361106044,0.));
#449=DIRECTION('',(-0.363307361106044,-0.931669341218311,0.));
#450=DIRECTION('center_axis',(-0.931669341218312,0.363307361106044,0.));
#451=DIRECTION('ref_axis',(-0.363307361106044,-0.931669341218311,0.));
#452=DIRECTION('',(0.,0.,-1.));
#453=DIRECTION('',(-0.363307361106044,-0.931669341218311,0.));
#454=DIRECTION('',(0.,0.,1.));
#455=DIRECTION('center_axis',(0.363307361106044,0.931669341218312,0.));
#456=DIRECTION('ref_axis',(-0.931669341218312,0.363307361106044,0.));
#457=DIRECTION('',(-0.931669341218312,0.363307361106044,0.));
#458=DIRECTION('',(0.,0.,1.));
#459=DIRECTION('center_axis',(0.931669341218311,-0.363307361106044,0.));
#460=DIRECTION('ref_axis',(0.363307361106044,0.931669341218311,0.));
#461=DIRECTION('',(0.363307361106044,0.931669341218311,0.));
#462=DIRECTION('',(0.,0.,1.));
#463=DIRECTION('center_axis',(0.,0.,1.));
#464=DIRECTION('ref_axis',(-0.363307361106044,-0.931669341218311,0.));
#465=DIRECTION('center_axis',(0.,0.,1.));
#466=DIRECTION('ref_axis',(1.,0.,0.));
#467=DIRECTION('center_axis',(0.,0.,1.));
#468=DIRECTION('ref_axis',(1.,0.,0.));
#469=DIRECTION('center_axis',(0.,0.,1.));
#470=DIRECTION('ref_axis',(1.,0.,0.));
#471=DIRECTION('center_axis',(0.,0.,-1.));
#472=DIRECTION('ref_axis',(0.799969943307562,0.600040073498843,0.));
#473=DIRECTION('',(-0.799969943307562,-0.600040073498843,0.));
#474=DIRECTION('center_axis',(0.,0.,1.));
#475=DIRECTION('ref_axis',(0.799969943307562,0.600040073498842,0.));
#476=DIRECTION('',(0.985347547553193,-0.17055852523667,0.));
#477=DIRECTION('center_axis',(0.,0.,-1.));
#478=DIRECTION('ref_axis',(0.799969943307562,0.600040073498843,0.));
#479=DIRECTION('',(-0.983281458091882,-0.182092213377458,0.));
#480=DIRECTION('center_axis',(0.,0.,-1.));
#481=DIRECTION('ref_axis',(1.,0.,0.));
#482=DIRECTION('',(0.983281458091882,0.182092213377458,0.));
#483=DIRECTION('center_axis',(0.600040073498843,-0.799969943307562,0.));
#484=DIRECTION('ref_axis',(0.799969943307562,0.600040073498843,0.));
#485=DIRECTION('',(0.,0.,-1.));
#486=DIRECTION('',(0.799969943307562,0.600040073498843,0.));
#487=DIRECTION('',(0.,0.,1.));
#488=DIRECTION('center_axis',(0.,0.,1.));
#489=DIRECTION('ref_axis',(-0.972262920143836,-0.23389060287532,0.));
#490=DIRECTION('center_axis',(0.,0.,-1.));
#491=DIRECTION('ref_axis',(0.799969943307562,0.600040073498842,0.));
#492=DIRECTION('',(0.,0.,1.));
#493=DIRECTION('center_axis',(0.17055852523667,0.985347547553193,0.));
#494=DIRECTION('ref_axis',(-0.985347547553193,0.17055852523667,0.));
#495=DIRECTION('',(-0.985347547553193,0.17055852523667,0.));
#496=DIRECTION('',(0.,0.,1.));
#497=DIRECTION('center_axis',(0.,0.,1.));
#498=DIRECTION('ref_axis',(0.139417747121283,-0.990233655147928,0.));
#499=DIRECTION('center_axis',(0.,0.,1.));
#500=DIRECTION('ref_axis',(0.799969943307562,0.600040073498843,0.));
#501=DIRECTION('',(0.,0.,1.));
#502=DIRECTION('center_axis',(0.182092213377458,-0.983281458091882,0.));
#503=DIRECTION('ref_axis',(0.983281458091882,0.182092213377458,0.));
#504=DIRECTION('',(0.983281458091882,0.182092213377458,0.));
#505=DIRECTION('',(0.,0.,1.));
#506=DIRECTION('center_axis',(0.,0.,1.));
#507=DIRECTION('ref_axis',(-0.983281458091882,-0.18209221337746,0.));
#508=DIRECTION('center_axis',(0.,0.,1.));
#509=DIRECTION('ref_axis',(1.,0.,0.));
#510=DIRECTION('',(0.,0.,1.));
#511=DIRECTION('center_axis',(-0.182092213377458,0.983281458091882,0.));
#512=DIRECTION('ref_axis',(-0.983281458091882,-0.182092213377458,0.));
#513=DIRECTION('',(-0.983281458091882,-0.182092213377458,0.));
#514=DIRECTION('',(0.,0.,1.));
#515=DIRECTION('center_axis',(0.,0.,1.));
#516=DIRECTION('ref_axis',(0.799969943307562,0.600040073498843,0.));
#517=DIRECTION('center_axis',(0.,0.,1.));
#518=DIRECTION('ref_axis',(0.799969943307562,0.600040073498843,0.));
#519=DIRECTION('center_axis',(0.,0.,1.));
#520=DIRECTION('ref_axis',(1.,0.,0.));
#521=CARTESIAN_POINT('',(0.,0.,0.));
#522=CARTESIAN_POINT('Origin',(100.,25.,-100.));
#523=CARTESIAN_POINT('',(0.,0.,-100.));
#524=CARTESIAN_POINT('',(0.,50.,-100.));
#525=CARTESIAN_POINT('',(0.,50.,-100.));
#526=CARTESIAN_POINT('',(200.,50.,-100.));
#527=CARTESIAN_POINT('',(200.,50.,-100.));
#528=CARTESIAN_POINT('',(200.,0.,-100.));
#529=CARTESIAN_POINT('',(200.,0.,-100.));
#530=CARTESIAN_POINT('',(0.,0.,-100.));
#531=CARTESIAN_POINT('Origin',(200.,50.,0.));
#532=CARTESIAN_POINT('',(0.,50.,100.));
#533=CARTESIAN_POINT('',(0.,50.,0.));
#534=CARTESIAN_POINT('',(200.,50.,100.));
#535=CARTESIAN_POINT('',(200.,50.,100.));
#536=CARTESIAN_POINT('',(200.,50.,0.));
#537=CARTESIAN_POINT('Origin',(200.,0.,0.));
#538=CARTESIAN_POINT('',(200.,0.,100.));
#539=CARTESIAN_POINT('',(200.,0.,100.));
#540=CARTESIAN_POINT('',(200.,0.,0.));
#541=CARTESIAN_POINT('Origin',(0.,0.,0.));
#542=CARTESIAN_POINT('',(0.,0.,100.));
#543=CARTESIAN_POINT('',(0.,0.,100.));
#544=CARTESIAN_POINT('',(0.,0.,0.));
#545=CARTESIAN_POINT('Origin',(0.,50.,0.));
#546=CARTESIAN_POINT('',(0.,50.,100.));
#547=CARTESIAN_POINT('Origin',(100.,25.,100.));
#548=CARTESIAN_POINT('Origin',(117.380032009445,109.265928587622,-15.));
#549=CARTESIAN_POINT('',(124.17632276028,76.1836448258098,-15.));
#550=CARTESIAN_POINT('',(99.9312533714664,85.6380851404007,-15.));
#551=CARTESIAN_POINT('Origin',(100.,50.,-15.));
#552=CARTESIAN_POINT('',(146.153146077274,204.170008622441,-15.));
#553=CARTESIAN_POINT('',(87.8774653055932,54.7272201572954,-15.));
#554=CARTESIAN_POINT('',(170.398215466088,194.71556830785,-15.));
#555=CARTESIAN_POINT('',(146.153146077274,204.170008622441,-15.));
#556=CARTESIAN_POINT('',(170.398215466088,194.71556830785,-15.));
#557=CARTESIAN_POINT('Origin',(146.153146077274,204.170008622441,0.));
#558=CARTESIAN_POINT('',(99.9312533714664,85.6380851404007,15.));
#559=CARTESIAN_POINT('',(99.9312533714664,85.6380851404007,0.));
#560=CARTESIAN_POINT('',(146.153146077274,204.170008622441,15.));
#561=CARTESIAN_POINT('',(87.8774653055932,54.7272201572954,15.));
#562=CARTESIAN_POINT('',(146.153146077274,204.170008622441,0.));
#563=CARTESIAN_POINT('Origin',(170.398215466088,194.71556830785,0.));
#564=CARTESIAN_POINT('',(170.398215466088,194.71556830785,15.));
#565=CARTESIAN_POINT('',(146.153146077274,204.170008622441,15.));
#566=CARTESIAN_POINT('',(170.398215466088,194.71556830785,0.));
#567=CARTESIAN_POINT('Origin',(124.17632276028,76.1836448258098,0.));
#568=CARTESIAN_POINT('',(124.17632276028,76.1836448258098,15.));
#569=CARTESIAN_POINT('',(170.398215466088,194.71556830785,15.));
#570=CARTESIAN_POINT('',(124.17632276028,76.1836448258098,0.));
#571=CARTESIAN_POINT('Origin',(100.,50.,0.));
#572=CARTESIAN_POINT('Origin',(100.,50.,15.));
#573=CARTESIAN_POINT('Origin',(117.380032009445,109.265928587622,15.));
#574=CARTESIAN_POINT('Origin',(230.54121626671,213.59725331572,-10.));
#575=CARTESIAN_POINT('',(271.50645667919,228.506597912894,-10.));
#576=CARTESIAN_POINT('',(325.495880297136,243.991620385671,-10.));
#577=CARTESIAN_POINT('Origin',(301.452952826806,225.95754287174,-10.));
#578=CARTESIAN_POINT('',(320.041377376961,239.900316255432,-10.));
#579=CARTESIAN_POINT('',(325.495880297136,243.991620385671,-10.));
#580=CARTESIAN_POINT('',(324.348886226057,221.99437612495,-10.));
#581=CARTESIAN_POINT('Origin',(301.452952826806,225.95754287174,-10.));
#582=CARTESIAN_POINT('',(331.067364989514,220.831442465071,-10.));
#583=CARTESIAN_POINT('',(301.452952826806,225.95754287174,-10.));
#584=CARTESIAN_POINT('',(274.405168902948,212.853814473672,-10.));
#585=CARTESIAN_POINT('Origin',(301.452952826806,225.95754287174,-10.));
#586=CARTESIAN_POINT('',(186.388272800003,196.554115853197,-10.));
#587=CARTESIAN_POINT('',(280.176981827158,213.922686648491,-10.));
#588=CARTESIAN_POINT('',(183.489560576245,212.206899292419,-10.));
#589=CARTESIAN_POINT('Origin',(158.275680771681,199.442788465145,-10.));
#590=CARTESIAN_POINT('',(156.826324659802,207.269180184756,-10.));
#591=CARTESIAN_POINT('Origin',(320.041377376961,239.900316255432,0.));
#592=CARTESIAN_POINT('',(325.495880297136,243.991620385671,10.));
#593=CARTESIAN_POINT('',(325.495880297136,243.991620385671,0.));
#594=CARTESIAN_POINT('',(320.041377376961,239.900316255432,10.));
#595=CARTESIAN_POINT('',(325.495880297136,243.991620385671,10.));
#596=CARTESIAN_POINT('',(320.041377376961,239.900316255432,0.));
#597=CARTESIAN_POINT('Origin',(301.452952826806,225.95754287174,0.));
#598=CARTESIAN_POINT('',(324.348886226057,221.99437612495,10.));
#599=CARTESIAN_POINT('Origin',(301.452952826806,225.95754287174,10.));
#600=CARTESIAN_POINT('',(324.348886226057,221.99437612495,0.));
#601=CARTESIAN_POINT('Origin',(331.067364989514,220.831442465071,0.));
#602=CARTESIAN_POINT('',(331.067364989514,220.831442465071,10.));
#603=CARTESIAN_POINT('',(301.452952826806,225.95754287174,10.));
#604=CARTESIAN_POINT('',(331.067364989514,220.831442465071,0.));
#605=CARTESIAN_POINT('Origin',(301.452952826806,225.95754287174,0.));
#606=CARTESIAN_POINT('',(274.405168902948,212.853814473672,10.));
#607=CARTESIAN_POINT('Origin',(301.452952826806,225.95754287174,10.));
#608=CARTESIAN_POINT('',(274.405168902948,212.853814473672,0.));
#609=CARTESIAN_POINT('Origin',(186.388272800003,196.554115853197,0.));
#610=CARTESIAN_POINT('',(186.388272800003,196.554115853197,10.));
#611=CARTESIAN_POINT('',(280.176981827158,213.922686648491,10.));
#612=CARTESIAN_POINT('',(186.388272800003,196.554115853197,0.));
#613=CARTESIAN_POINT('Origin',(158.275680771681,199.442788465145,0.));
#614=CARTESIAN_POINT('',(183.489560576245,212.206899292419,10.));
#615=CARTESIAN_POINT('Origin',(158.275680771681,199.442788465145,10.));
#616=CARTESIAN_POINT('',(183.489560576245,212.206899292419,0.));
#617=CARTESIAN_POINT('Origin',(271.50645667919,228.506597912894,0.));
#618=CARTESIAN_POINT('',(271.50645667919,228.506597912894,10.));
#619=CARTESIAN_POINT('',(156.826324659802,207.269180184756,10.));
#620=CARTESIAN_POINT('',(271.50645667919,228.506597912894,0.));
#621=CARTESIAN_POINT('Origin',(301.452952826806,225.95754287174,0.));
#622=CARTESIAN_POINT('Origin',(301.452952826806,225.95754287174,10.));
#623=CARTESIAN_POINT('Origin',(230.54121626671,213.59725331572,10.));
#624=UNCERTAINTY_MEASURE_WITH_UNIT(LENGTH_MEASURE(0.01),#628,
'DISTANCE_ACCURACY_VALUE',
'Maximum model space distance between geometric entities at asserted c
onnectivities');
#625=UNCERTAINTY_MEASURE_WITH_UNIT(LENGTH_MEASURE(0.01),#628,
'DISTANCE_ACCURACY_VALUE',
'Maximum model space distance between geometric entities at asserted c
onnectivities');
#626=(
GEOMETRIC_REPRESENTATION_CONTEXT(3)
GLOBAL_UNCERTAINTY_ASSIGNED_CONTEXT((#624))
GLOBAL_UNIT_ASSIGNED_CONTEXT((#628,#630,#631))
REPRESENTATION_CONTEXT('','3D')
);
#627=(
GEOMETRIC_REPRESENTATION_CONTEXT(3)
GLOBAL_UNCERTAINTY_ASSIGNED_CONTEXT((#625))
GLOBAL_UNIT_ASSIGNED_CONTEXT((#628,#630,#631))
REPRESENTATION_CONTEXT('','3D')
);
#628=(
LENGTH_UNIT()
NAMED_UNIT(*)
SI_UNIT(.MILLI.,.METRE.)
);
#629=(
LENGTH_UNIT()
NAMED_UNIT(*)
SI_UNIT($,.METRE.)
);
#630=(
NAMED_UNIT(*)
PLANE_ANGLE_UNIT()
SI_UNIT($,.RADIAN.)
);
#631=(
NAMED_UNIT(*)
SI_UNIT($,.STERADIAN.)
SOLID_ANGLE_UNIT()
);
#632=SHAPE_DEFINITION_REPRESENTATION(#633,#634);
#633=PRODUCT_DEFINITION_SHAPE('',$,#636);
#634=SHAPE_REPRESENTATION('',(#384),#626);
#635=PRODUCT_DEFINITION_CONTEXT('part definition',#640,'design');
#636=PRODUCT_DEFINITION('really simple arm','really simple arm v2',#637,
#635);
#637=PRODUCT_DEFINITION_FORMATION('',$,#642);
#638=PRODUCT_RELATED_PRODUCT_CATEGORY('really simple arm v2',
'really simple arm v2',(#642));
#639=APPLICATION_PROTOCOL_DEFINITION('international standard',
'automotive_design',2009,#640);
#640=APPLICATION_CONTEXT(
'Core Data for Automotive Mechanical Design Process');
#641=PRODUCT_CONTEXT('part definition',#640,'mechanical');
#642=PRODUCT('really simple arm','really simple arm v2',$,(#641));
#643=PRESENTATION_STYLE_ASSIGNMENT((#644));
#644=SURFACE_STYLE_USAGE(.BOTH.,#645);
#645=SURFACE_SIDE_STYLE('',(#646));
#646=SURFACE_STYLE_FILL_AREA(#647);
#647=FILL_AREA_STYLE('Steel - Satin',(#648));
#648=FILL_AREA_STYLE_COLOUR('Steel - Satin',#649);
#649=COLOUR_RGB('Steel - Satin',0.627450980392157,0.627450980392157,0.627450980392157);
ENDSEC;
END-ISO-10303-21;
